21.08.2011
Кипелов - Cмутное время. «Кипелов + Маврин» (1997)
Кипелов - Cмутное время. «Кипелов + Маврин» (1997) - тексты песен, аккорды для гитары


  1. Путь наверх
  2. Выпьем еще
  3. Вот и все дела!
  4. Я свободен!
  5. Смутное время
  6. Свет дневной иссяк...
  7. Castlevania
  8. Ночь в июле
  9. Будем жить, мать Россия!
  10. Кода






Путь наверх
 

G#
Ты брошен вниз силой судьбы,
F#m G#
Ты унижен и раздавлен,
Время забыть то, кем ты был,
F#m G#
Но помнить, кем ты стал...
C#
Брошен на дно, где все равно,
D C#
За что тебя любила слава.
Подлость огнем ставит клеймо,
D C# D# E F D# E F D#
Душа твоя пуста...

Люди на дне рыщут во тьме,
Они готовы жрать друг друга,
Чтобы продлить дикую жизнь,
Урвать себе кусок.
Свой среди них, жадных и злых,
Ты в той же стае мчишь по кругу,
С ними ползешь закону под нож,
D C#
Как раб или пророк!

Hm F#
О, если б слушать только тишину,
Hm F# Hm
Не ложь, не лесть, не полдень и не тьму,
Em
Под солнцем снегом тая,
A#dim
Любить, измен не зная,-
Em F#
Ты умер бы от злой тоски!

G#m H
Хей, жители неба,
E G#m
Кто на дне еще не был?
H
Не пройдя преисподние
E D#
Вам не выстроить рай!

Хей, жители дна,
Гром смеется над вами:
Чтобы быть с ним на равных,
Есть один путь - наверх!

Но яркий луч вспыхнет в мозгу,
И покорность выбьет клином,
Прошлые дни в душе оживут -
Свершится новый грех.
Кровь на руках, кровь на камнях,
По телам и жалким спинам
Тех, кто готов подохнуть в рабах,
Ты рвешься вновь наверх:

Припев > 2 раза

Выпьем еще
 

E
Один глоток моей душе не даст огня,
Но искру может дать второй,
A
И вот опять с утра никак мне не понять,
E
Кто здесь, покойник, кто живой!

A G A G
Выпьем еще, приятель.
A G
Выпьем еще,
B
Выпьем еще чуть-чуть.
A G E
И все!

Пока еще в сознаньи - вспомним времена
Дешевой жизни и дешевого вина,
Когда любой из тех, кто классно джаз играл,
Страну родную продавал.

Припев

Ты рад свободе выбирать себе дурдом,
Хоть здесь, хоть где-то за бугром,
Но я стал стар, чтоб по-другому жить и петь,
Но молод я чтоб умереть!

Припев

Вот и все дела!
 

F C G
Эй, полюби меня чумазым,
F C G
А чистым каждая возьмет,
F C G
Я убеждаюсь с каждым разом все сильней,
F C G
Что жизнь с тобой - не Новый год.

Em Am G C
Нет, я не принц и я не белый мотылек,
F C G E7 Am G7 C
Но рад лететь на огонек,
F C G
Но я держался, сколько мог.

D G
Да, я мишень плохая для твоих побед,
Все грехи тебе прощаю, ну, а ты мне - нет.
Не буду тратить нервы и сходить с ума,
Я - налево, ты - направо, вот и все дела!

Да, я держался сколько надо -
За воздух, дерево, металл,
Но вот пошел процесс распада там, в душе,
И я держаться перестал.

И я рванул как ветер, зря не тратя слов,
От злой любви себя храня,
Привет, забытые друзья!

Припев

Я не герой твоих романов -
Послушный, глупый мотылек,
Как говорил бандит с экрана, и был прав, -
"Ты прикрути-ка фитилек!".

И я рванул как ветер, зря не тратя слов,
От злой любви себя храня,
Привет, забытые друзья!

Припев

Я свободен!
 

Hm
Надо мною - тишина,
Em Hm
Небо, полное дождя,
Em Hm
Дождь проходит сквозь меня,
A
Но боли больше нет.

Под холодный шепот звезд
Мы сожгли последний мост,
И все в бездну сорвалось,
Свободным стану я

G
От зла и от добра,
F# Hm
Моя душа была на лезвии ножа.

Проигрыш:
Hm D A Hm

Я бы мог с тобою быть,
Я бы мог про все забыть,
Я бы мог тебя любить,
Но это лишь игра.

В шуме ветра за спиной
Я забуду голос твой,
И о той любви земной,
Что нас сжигала в прах,
И я сходил с ума...
В моей душе нет больше места для тебя!

Hm D A Hm
Я свободен, словно птица в небесах,
Я свободен, я забыл, что значит страх.
Я свободен - с диким ветром наравне,
Я свободен наяву, а не во сне!

Надо мною - тишина,
Небо, полное огня,
Свет проходит сквозь меня,
И я свободен вновь.
Я свободен от любви,
От вражды и от молвы,
От предсказанной судьбы
И от земных оков,
От зла и от добра...
В моей душе нет больше места для тебя!

Я свободен, словно птица в небесах,
Я свободен, я забыл, что значит страх.
Я свободен - с диким ветром наравне,
Я свободен наяву, а не во сне!

C#m E H C#m
Я свободен, словно птица в небесах,
Я свободен, я забыл, что значит страх.
Я свободен - с диким ветром наравне,
Я свободен наяву, а не во сне!

Смутное время
 

Am
Смутное время -
Dm G
Призрак свободы на коне,
Am
Кровь по колено,
Dm G
Словно в каком-то диком сне,
Dm Em
Тешится люд - бьют старых богов,
Dm Em
Молится люд - ждут праведных снов.

В небе комета -
Близких несчастий верный знак,
Воины света
Павших сжигают на кострах,
Воины тьмы - мир - взяли в кольцо,
Тысячи птиц вниз рухнут дождем.

F
Мы не знаем, кто мы -
G
Дети красной звезды,
Dm
Дети черной звезды
E E7
Или новых могил...

Am
Танец смерти
F G
Прост и страшен,
Am F G
Но пока не пробил час,
Am F G
За грехи всех предков наших
Am F G
Время смут карает нас!

Мы еще живы!
Кто-то спасется, кто-то - нет,
Диким порывом
В крепости нашей гасит свет,
Сорванный флаг - знак - к сдаче врагам,
Но нас не возьмешь - врешь - мы живы пока!

Смутное время -
Призрак свободы на коне,
Кровь по колено,
Словно в безумном диком сне,
Тешится люд - бьют старых богов,
Молится люд - ждут праведных снов.

Припев > 2 раза

Свет дневной иссяк...
 

F#m Hm
Свет дневной иссяк
F#m Hm
И вокруг меня пустыня.
F#m D Db
Звон звезд гонит прочь мрак,
F#m Hm6
Да святится Твое Имя!
Я здесь - я нигде,
Но слезами боль не хлынет.
Будь свят скорбный удел,
Да святится Твое Имя!
D7b F#m Db F#m
Ни ветра, ни сна. Кто вспомнит меня!

F#
Как бы я хотел плыть в лодке
E
Морем на закат,
F#
Вольным быть как зверь свободный
E
И растить свой сад,
Hm Db F#m E A
Жить бы лет до ста и любить как все
Hm Db
Любят на земле!

Сын небесных сфер
Здесь лишь демоны и змеи,
Но ты молод и смел
Вместе миром овладеем.
Ты мне поклонись
И получишь все богатства.
Власть Тьмы - вот это жизнь,
В безпробудном танце адском.
Все жены - твои, под звон золотых!

Ты же сам хотел плыть в лодке
Морем на закат,
Вольным быть как зверь свободный
И растить свой сад,
Жил бы лет до ста и любил как все,
Но не на кресте!

Вокальная партия:

E-----------------------!--------------------------!
H-----------------------!----7---9--7---9--7-----7-!
G-----6-----------------!-6--------------------7---!
D-4--------7--6---7---9-!--------------------------!
A-----------------------!--------------------------!
E-----------------------!--------------------------!
свет дне-вной ис-сяк и во-круг ме-ня пус-ты-ня

E------------------------------!------------------------!
H---------7------------7-------!------------------------!
G----6--------7---9---------6--!--6--------------------7!
D------------------------------!------7-6---4---6--7-9--!
A------------------------------!------------------------!
E------------------------------!------------------------!
звон звезд го-нит прочь мрак да свя-ти-тся тво-е и-мя

E-----4----------5!-------4----------5!
H--6------6--7----!--6---------6--7---!
G-----------------!-------------------!
D-----------------!-------------------!
A-----------------!-------------------!
E-----------------1-------------------!
ни вет-ра ни сна кто вспом-нит ме-ня

E--6----------------------------!-----------------!
H-----7--7--------------------7-!-5--7---9--7--5--!
G--------------6-----------6----!-----------------!
D-----------8-------8-----------!-----------------!
A-------------------------------!-----------------!
E-------------------------------!-----------------!
как бы я хо-тел плыть в лод-ке мо-рем на за-кат
(вольным быть как зверь свободный и растить свой сад)

E-------------------------------------!---------------!
H------7------6----7------9--------10-!-------7------9!
G--4-------6---------9----------------!----7-----7----!
D-------------------------------------!-9-------------!
A-------------------------------------!---------------!
E-------------------------------------!---------------!
жить бы лет до ста и любить как все лю-бят на зем-ле

Castlevania
 

Em
Древний храм на скале освещен луной,
H
Сотни лет он стоит, скован тишиной,
H7
Там огонь священный жертву ждет!

Ветер бьет по лицу крыльями дождя,
Крик летит в пустоту, слышу эхо я,
Стиснув зубы, я иду вперед.

Am
Вверх магнитом тянет
H H7
Жертвенное пламя храма,
Стану морем света
Или горстью пепла там я!

C Em
Не проси - не возьму тебя с собой,
Не смотри - смысла жизни я не знаю,
Не желай тайны выведать чужой.
Помолчи - время есть, я продолжаю!

Вижу знак на стене - кто-то ждал меня,
Семь свечей, семь теней пляшут на камнях,
И блестит магический кинжал.

Проклят будь этот миг - я схватил клинок,
Грянул хор горькой тьмы, рассмеялся Бог!
Род людской последней жертвой стал.

Жизни смерть итожит,
Всех огонь священный гложет.
Очищенье светом,
Звонким серым пеплом, Боже!

Не проси - не возьму с собой,
Не смотри - смысла жизни я не знаю
Не желай тайны выведать чужой,
Вот и все! Я лишь дух, я исчезаю...
H H7
Боже! Боже!

Ночь в июле
 

С
Ты уходишь прочь из дома -
Dm F G
В час, когда все крепко спят.
C G Am
По дороге мне знакомой,
G
От рассвета на закат.

A(V) A7(V) Dm
Ночь в июле полна соблазнов,
F G C
И мятежна ночная даль.
Dm Am
Свыше путь тебе указан,
C G
Знает бог один куда...

Слишком много было фальши,
Несвободы и вранья.
Ангел мой, так будет дальше,
Но беги, беги пока.

Припев

Знаю, встретишь незнакомца,
Сердце вздрогнет и замрет.
В новой клетке будет солнце,
Но никто от боли не спасет.

Припев

Am Em
Я и сам мечтал когда-то,
Am(V) Em(VII)
Раскачать безумный этот мир,
Am Em
Но умчалось все куда-то,
Am(V) Em(VII)
Все прошло, как с белых яблонь дым,
F G
Но, а ты беги пока, свободна и легка...

Припев

Будем жить, мать Россия!
 

Intro:
Вообще то вступление играется на органе, но если положить на гитару, то будет примерно
так:

E----------------------------------------
B----------------------------------------
G----------------------------------------
D------------------------5-7-9-7-5-7-9---
A----7-9-10-9-7-5-2----------------------
E----------------------------------------

E----------------------------------------
B----------------------------------------
G----------------------------------------
D----4-4-6-7-6-4-6-6-7-6-4-3-4-----------
A--------------------------------7-6-----
E----------------------------------------

E----------------------------------------
B----------------------------------------
G----------------------------------------
D------------------------5-7-9-7-5-7-9---
A----7-9-10-9-7-5-2----------------------
E----------------------------------------

E----------------------------------------
B----------------------------------------
G----------------------------------------
D----4-4-6-7-6-4-6-6-7-6-4-3-4-----------
A----------------------------------------
E----------------------------------------

Жестко 4х
E----------------------------------------
B----------------------------------------
G----5-5-5-5-5-5-5-5-5-5-5-5-------------
D----5-5-5-5-5-5-5-5-5-5-5-5-------------
A----3-3-3-3-3-3-3-3-3-3-3-3-------------
E----------------------------------------

Verse 1
С
E------------------------------
B------------------------------
G-5-5-5-5-5-5-5-5-5-5-5-5-5-5-5
D-5-5-5-5-5-5-5-5-5-5-5-5-5-5-5
A-3-3-3-3-3-3-3-3-3-3-3-3-3-3-3
E------------------------------
Эй, гони-ка ,парень, с ветерком,

G# C
E------------------------------------
B------------------------------------
G--------------------5-5-5-5-5-5-5-5-
D-6-6-6-6-6-6-6-6-6--5-5-5-5-5-5-5-5-
A-6-6-6-6-6-6-6-6-6--3-3-3-3-3-3-3-3-
E-4-4-4-4-4-4-4-4-4------------------
Чтобы пела кровь, и пыль столбом.

С
E------------------------------------
B------------------------------------
G-5-5-5-5-5-5-5-5-5-5-5-5-5-5-5-5-5-5
D-5-5-5-5-5-5-5-5-5-5-5-5-5-5-5-5-5-5
A-3-3-3-3-3-3-3-3-3-3-3-3-3-3-3-3-3-3
E------------------------------------
Пусть нам свистнет старый леший вслед,

G# C
E-------------------------------------------
B-------------------------------------------
G----------------------5-5-5-5-5-5-5-5-5----
D-6-6-6-6-6-6-6-6-6-6--5-5-5-5-5-5-5-5-5----
A-6-6-6-6-6-6-6-6-6-6--3-3-3-3-3-3-3-3-5----
E-4-4-4-4-4-4-4-4-4-4-----------------------
Ведьма спрячет в чаще белый свет.

Dm
E-----------------------------------------
B-----------------------------------------
G-7-7-7-7-7-7-7-7-7-7-7-7-7-7-7-7-7-7-7-7-
D-7-7-7-7-7-7-7-7-7-7-7-7-7-7-7-7-7-7-7-7-
A-5-5-5-5-5-5-5-5-5-5-5-5-5-5-5-5-5-5-5-5-
E-----------------------------------------
По родным дорогам, темным и убогим,

Bb
E-----------------------------------------
B-----------------------------------------
G-3-3-3-3-3-3-3-3-3-3-3-3-3-3-3-3-3-3-3-3-
D-3-3-3-3-3-3-3-3-3-3-3-3-3-3-3-3-3-3-3-3-
A-1-1-1-1-1-1-1-1-1-1-1-1-1-1-1-1-1-1-1-1-
E-----------------------------------------
К черту в пасть, чтоб пропасть.

Dm
E-----------------------------------------
B-----------------------------------------
G-7-7-7-7-7-7-7-7-7-7-7-7-7-7-7-7-7-7-7-7-
D-7-7-7-7-7-7-7-7-7-7-7-7-7-7-7-7-7-7-7-7-
A-5-5-5-5-5-5-5-5-5-5-5-5-5-5-5-5-5-5-5-5-
E-----------------------------------------
А потом воскреснуть и на том же месте

Bb A
E-------------------------------
B-------------------------------
G-3-3-3-3-3-3-3-3-3-2-2-2-2-2-2-
D-3-3-3-3-3-3-3-3-3-2-2-2-2-2-2-
A-1-1-1-1-1-1-1-1-1-0-0-0-0-0-0-
E-------------------------------
Крест вознести золотой.

Verse 2
Справа волнами то смех, то мат,
Кто-то бьет из пушки наугад.
Слева тишь да божья благодать,
Нет, умом тебя мне не понять.
Тут и там седые, странные босые,
А в глазах - небеса.
Выпьют и закусят, все до нитки спустят,
Нрав свой покажут крутой.

Chorus 1:
Em Hm
E---------------------------
B---------------------------
G-9-9-9-9-9-9-9-9-9-9-4-4-4-
D-9-9-9-9-9-9-9-9-9-9-4-4-4-
A-7-7-7-7-7-7-7-7-7-7-2-2-2-
E---------------------------
Будем жить, Мать Россия!

G A
E-------------------------
B-------------------------
G-------------------------
D--5-5-5-5-5-5-5-7-7-7-7--
A--5-5-5-5-5-5-5-7-7-7-7--
E--3-3-3-3-3-3-3-5-5-5-5--
С нами крестная сила.

F# G#m F# G#m
E------------------------------------------------------
B------------------------------------------------------
G------------------------------------------------------
D--4-4-4-4-4-4-4-4-4-4-4-6-6-6-6-6-6-6-6-6-4-4-4-6-6-6-
A--4-4-4-4-4-4-4-4-4-4-4-6-6-6-6-6-6-6-6-6-4-4-4-6-6-6-
E--2-2-2-2-2-2-2-2-2-2-2-4-4-4-4-4-4-4-4-4-2-2-2-4-4-4-
Нет той беды, что пройдет мимо нас стороной.

Em Hm
E-------------------
B-------------------
G-9-9-9-9-9-9-4-4-4-
D-9-9-9-9-9-9-4-4-4-
A-7-7-7-7-7-7-2-2-2-
E-------------------
Были Орды и ханы,

G A
E------------------------
B------------------------
G------------------------
D--5-5-5-5-5-7-7-7-7-----
A--5-5-5-5-5-7-7-7-7-----
E--3-3-3-3-3-5-5-5-5-----
Грозные атаманы,

F# G#m F# G#m
E----------------------------------------------
B----------------------------------------------
G----------------------------------------------
D--4-4-4-4-4-4-4-6-6-6-6-6-6-6-6-6-4-4-4-6-6-6-
A--4-4-4-4-4-4-4-6-6-6-6-6-6-6-6-6-4-4-4-6-6-6-
E--2-2-2-2-2-2-2-4-4-4-4-4-4-4-4-4-2-2-2-4-4-4-
Но последнее слово всегда за тобой!

Verse 3
Эй, гони-ка ,парень, с ветерком,
К черту думы о лихом былом!
Грянем песню, да на весь окрест,
Бог не выдаст, свинья не съест.
По родным дорогам, темным и убогим,
К черту в пасть, эх, не в масть!
А потом воскреснуть и на том же месте
Крест вознести золотой.

Chorus 1:
Будем жить, Мать Россия!
С нами крестная сила.
Нет той беды, что пройдет мимо нас стороной.
Были Орды и ханы,
Грозные атаманы,
Но последнее слово всегда за тобой!

Verse 4
Эй, гони-ка ,парень, на простор,
Нам не страшен ни один забор.
Вновь меняя пряники на кнут,
И веками люди чуда ждут.
Мчатся по дорогам, темным и убогим,
К черту в пасть, чтоб пропасть.
А потом воскреснут и на том же месте
Крест вознесут золотой.

Chorus 2:
Будем жить, Мать Россия!
С нами крестная сила.
Не впервой рисковать нам своей головой.
Были Орды и ханы,
Грозные атаманы,
Но последнее слово всегда за тобой!

Outro=Intro

Кода
 

--//--
Кипелов / 1852 / info
Всего комментариев: 0
Добавлять комментарии могут только зарегистрированные пользователи.
[ Регистрация | Вход ]
Farvater.net © 2009-2018